Being me

Chorus

‘Cause I’m good at being me
Just cruising own
I’ve never been nobody else
Hell, it’s all I’ve ever known

I know exactly what I want
I know exactly who I am
I’m only good at being me
And I hope you’ll understand

Bridge

And I’m sorry I hurt you, but hey
Life is for the living
We ran and sang and cried and danced so
Isn’t that worth forgiving

Chorus

I’m only good at being me
Just cruising own
I’ve never been nobody else
Hell, it’s all I’ve ever known

I know exactly what I want
I know exactly who I am
I’m only good at being me
And I hope you’ll understand

I am text block. Click edit button to change this text.

Capo 2

Intro 
|-------------0-----------------------3----------|
|-1-------1-----------1---1-------1-------3------|
|-----2-----------2-----------2---------0---0----|
|---2-------2---2-------2---2-------2------------|
|-0-----0-----0-----0-----0-----0-----0---2------|
|------------------------------------------------|

|-0-----------0-----------------------3----------|
|---------1-----------1---1-------1-------3------|
|-----0-----------0-----------0---------0---0----|
|---2-------2---2-------2---2-------2------------|
|-3-----3-----3-----3-----3-----3-----3---2------|
|------------------------------------------------|

 

Chorus

‘Cause I’m good at being me
Just cruising own
I’ve never been nobody else
Hell, it’s all I’ve ever known

‘Being me’ is about the core of your personality. It’s about who you really are, it’s the truth, the whole truth and nothing but the truth. It’s about setting things aside to achieve your self-fulfilling goals. It’s about not wanting to compromise but doing exactly what you want. It’s about acceptance, about not willing to change anything about you.

And sure, this sounds a little bit selfish. But maybe that’s not such a bad thing at all. I mean, we do see life trough our eyes do we not? Basically the song is about not being afraid to make a few sacrifices.

So are you good at being you?